  0
SECTION
  2
HEADER
  9
$ACADVER
  1
AC1015
  9
$ACADMAINTVER
 70
     6
  9
$DWGCODEPAGE
  3
ANSI_1254
  9
$INSBASE
 10
0.0
 20
0.0
 30
0.0
  9
$EXTMIN
 10
0.0
 20
0.0
 30
0.0
  9
$EXTMAX
 10
279.4
 20
215.9
 30
0.0
  9
$LIMMIN
 10
0.0
 20
0.0
  9
$LIMMAX
 10
279.4
 20
215.9
  9
$ORTHOMODE
 70
     0
  9
$REGENMODE
 70
     1
  9
$FILLMODE
 70
     1
  9
$QTEXTMODE
 70
     0
  9
$MIRRTEXT
 70
     1
  9
$LTSCALE
 40
1.0
  9
$ATTMODE
 70
     1
  9
$TEXTSIZE
 40
3.5
  9
$TRACEWID
 40
1.0
  9
$TEXTSTYLE
  7
Standard
  9
$CLAYER
  8
0
  9
$CELTYPE
  6
ByLayer
  9
$CECOLOR
 62
   256
  9
$CELTSCALE
 40
1.0
  9
$DISPSILH
 70
     0
  9
$DIMSCALE
 40
1.0
  9
$DIMASZ
 40
3.5
  9
$DIMEXO
 40
1.0
  9
$DIMDLI
 40
3.75
  9
$DIMRND
 40
0.0
  9
$DIMDLE
 40
0.0
  9
$DIMEXE
 40
1.0
  9
$DIMTP
 40
0.0
  9
$DIMTM
 40
0.0
  9
$DIMTXT
 40
3.5
  9
$DIMCEN
 40
2.5
  9
$DIMTSZ
 40
0.0
  9
$DIMTOL
 70
     0
  9
$DIMLIM
 70
     0
  9
$DIMTIH
 70
     1
  9
$DIMTOH
 70
     1
  9
$DIMSE1
 70
     0
  9
$DIMSE2
 70
     0
  9
$DIMTAD
 70
     1
  9
$DIMZIN
 70
     0
  9
$DIMBLK
  1

  9
$DIMASO
 70
     1
  9
$DIMSHO
 70
     1
  9
$DIMPOST
  1

  9
$DIMAPOST
  1

  9
$DIMALT
 70
     0
  9
$DIMALTD
 70
     3
  9
$DIMALTF
 40
0.0393700787
  9
$DIMLFAC
 40
1.0
  9
$DIMTOFL
 70
     1
  9
$DIMTVP
 40
0.0
  9
$DIMTIX
 70
     0
  9
$DIMSOXD
 70
     0
  9
$DIMSAH
 70
     0
  9
$DIMBLK1
  1

  9
$DIMBLK2
  1

  9
$DIMSTYLE
  2
ISO-25
  9
$DIMCLRD
 70
     0
  9
$DIMCLRE
 70
     0
  9
$DIMCLRT
 70
     0
  9
$DIMTFAC
 40
1.0
  9
$DIMGAP
 40
1.524
  9
$DIMJUST
 70
     0
  9
$DIMSD1
 70
     0
  9
$DIMSD2
 70
     0
  9
$DIMTOLJ
 70
     0
  9
$DIMTZIN
 70
     0
  9
$DIMALTZ
 70
     0
  9
$DIMALTTZ
 70
     0
  9
$DIMUPT
 70
     0
  9
$DIMDEC
 70
     2
  9
$DIMTDEC
 70
     2
  9
$DIMALTU
 70
     2
  9
$DIMALTTD
 70
     3
  9
$DIMTXSTY
  7
Standard
  9
$DIMAUNIT
 70
     0
  9
$DIMADEC
 70
     2
  9
$DIMALTRND
 40
0.0
  9
$DIMAZIN
 70
     0
  9
$DIMDSEP
 70
    44
  9
$DIMATFIT
 70
     3
  9
$DIMFRAC
 70
     0
  9
$DIMLDRBLK
  1

  9
$DIMLUNIT
 70
     2
  9
$DIMLWD
 70
    -2
  9
$DIMLWE
 70
    -2
  9
$DIMTMOVE
 70
     0
  9
$LUNITS
 70
     2
  9
$LUPREC
 70
     2
  9
$SKETCHINC
 40
1.0
  9
$FILLETRAD
 40
10.0
  9
$AUNITS
 70
     0
  9
$AUPREC
 70
     2
  9
$MENU
  1
.
  9
$ELEVATION
 40
0.0
  9
$PELEVATION
 40
0.0
  9
$THICKNESS
 40
0.0
  9
$LIMCHECK
 70
     0
  9
$CHAMFERA
 40
0.0
  9
$CHAMFERB
 40
0.0
  9
$CHAMFERC
 40
0.0
  9
$CHAMFERD
 40
0.0
  9
$SKPOLY
 70
     0
  9
$TDCREATE
 40
2458985.705670741
  9
$TDUCREATE
 40
2458985.580670741
  9
$TDUPDATE
 40
2458985.705671042
  9
$TDUUPDATE
 40
2458985.580671042
  9
$TDINDWG
 40
0.0000000116
  9
$TDUSRTIMER
 40
0.0000000116
  9
$USRTIMER
 70
     1
  9
$ANGBASE
 50
0.0
  9
$ANGDIR
 70
     0
  9
$PDMODE
 70
     0
  9
$PDSIZE
 40
-1.0
  9
$PLINEWID
 40
0.0
  9
$SPLFRAME
 70
     0
  9
$SPLINETYPE
 70
     6
  9
$SPLINESEGS
 70
     8
  9
$HANDSEED
  5
F1
  9
$SURFTAB1
 70
     6
  9
$SURFTAB2
 70
     6
  9
$SURFTYPE
 70
     6
  9
$SURFU
 70
     6
  9
$SURFV
 70
     6
  9
$UCSBASE
  2

  9
$UCSNAME
  2

  9
$UCSORG
 10
0.0
 20
0.0
 30
0.0
  9
$UCSXDIR
 10
1.0
 20
0.0
 30
0.0
  9
$UCSYDIR
 10
0.0
 20
1.0
 30
0.0
  9
$UCSORTHOREF
  2

  9
$UCSORTHOVIEW
 70
     0
  9
$UCSORGTOP
 10
0.0
 20
0.0
 30
0.0
  9
$UCSORGBOTTOM
 10
0.0
 20
0.0
 30
0.0
  9
$UCSORGLEFT
 10
0.0
 20
0.0
 30
0.0
  9
$UCSORGRIGHT
 10
0.0
 20
0.0
 30
0.0
  9
$UCSORGFRONT
 10
0.0
 20
0.0
 30
0.0
  9
$UCSORGBACK
 10
0.0
 20
0.0
 30
0.0
  9
$PUCSBASE
  2

  9
$PUCSNAME
  2

  9
$PUCSORG
 10
0.0
 20
0.0
 30
0.0
  9
$PUCSXDIR
 10
1.0
 20
0.0
 30
0.0
  9
$PUCSYDIR
 10
0.0
 20
1.0
 30
0.0
  9
$PUCSORTHOREF
  2

  9
$PUCSORTHOVIEW
 70
     0
  9
$PUCSORGTOP
 10
0.0
 20
0.0
 30
0.0
  9
$PUCSORGBOTTOM
 10
0.0
 20
0.0
 30
0.0
  9
$PUCSORGLEFT
 10
0.0
 20
0.0
 30
0.0
  9
$PUCSORGRIGHT
 10
0.0
 20
0.0
 30
0.0
  9
$PUCSORGFRONT
 10
0.0
 20
0.0
 30
0.0
  9
$PUCSORGBACK
 10
0.0
 20
0.0
 30
0.0
  9
$USERI1
 70
     0
  9
$USERI2
 70
     0
  9
$USERI3
 70
     0
  9
$USERI4
 70
     0
  9
$USERI5
 70
     0
  9
$USERR1
 40
0.0
  9
$USERR2
 40
0.0
  9
$USERR3
 40
0.0
  9
$USERR4
 40
0.0
  9
$USERR5
 40
0.0
  9
$WORLDVIEW
 70
     1
  9
$SHADEDGE
 70
     3
  9
$SHADEDIF
 70
    70
  9
$TILEMODE
 70
     1
  9
$MAXACTVP
 70
    64
  9
$PINSBASE
 10
0.0
 20
0.0
 30
0.0
  9
$PLIMCHECK
 70
     0
  9
$PEXTMIN
 10
1.0000000000E+20
 20
1.0000000000E+20
 30
1.0000000000E+20
  9
$PEXTMAX
 10
-1.0000000000E+20
 20
-1.0000000000E+20
 30
-1.0000000000E+20
  9
$PLIMMIN
 10
0.0
 20
0.0
  9
$PLIMMAX
 10
420.0
 20
297.0
  9
$UNITMODE
 70
     0
  9
$VISRETAIN
 70
     1
  9
$PLINEGEN
 70
     0
  9
$PSLTSCALE
 70
     1
  9
$TREEDEPTH
 70
  3020
  9
$CMLSTYLE
  2
Standard
  9
$CMLJUST
 70
     0
  9
$CMLSCALE
 40
20.0
  9
$PROXYGRAPHICS
 70
     1
  9
$MEASUREMENT
 70
     1
  9
$CELWEIGHT
370
    -1
  9
$ENDCAPS
280
     0
  9
$JOINSTYLE
280
     0
  9
$LWDISPLAY
290
     1
  9
$INSUNITS
 70
     4
  9
$HYPERLINKBASE
  1

  9
$STYLESHEET
  1

  9
$XEDIT
290
     1
  9
$CEPSNTYPE
380
     0
  9
$PSTYLEMODE
290
     1
  9
$FINGERPRINTGUID
  2
{fd18d3f5-f334-464c-834e-78af6c61f532}
  9
$VERSIONGUID
  2
{FAEB1C32-E019-11D5-929B-00C0DF256EC4}
  9
$EXTNAMES
290
     1
  9
$PSVPSCALE
 40
0.0
  9
$OLESTARTUP
290
     0
  0
ENDSEC
  0
SECTION
  2
CLASSES
  0
CLASS
  1
ACDBDICTIONARYWDFLT
  2
AcDbDictionaryWithDefault
  3
ObjectDBX Classes
 90
        0
280
     0
281
     0
  0
CLASS
  1
VISUALSTYLE
  2
AcDbVisualStyle
  3
ObjectDBX Classes
 90
     4095
280
     0
281
     0
  0
CLASS
  1
MATERIAL
  2
AcDbMaterial
  3
ObjectDBX Classes
 90
     1153
280
     0
281
     0
  0
CLASS
  1
SCALE
  2
AcDbScale
  3
ObjectDBX Classes
 90
     1153
280
     0
281
     0
  0
CLASS
  1
TABLESTYLE
  2
AcDbTableStyle
  3
ObjectDBX Classes
 90
     4095
280
     0
281
     0
  0
CLASS
  1
MLEADERSTYLE
  2
AcDbMLeaderStyle
  3
ACDB_MLEADERSTYLE_CLASS
 90
     4095
280
     0
281
     0
  0
CLASS
  1
SUN
  2
AcDbSun
  3
SCENEOE
 90
     1153
280
     0
281
     0
  0
CLASS
  1
ACDBPLACEHOLDER
  2
AcDbPlaceHolder
  3
ObjectDBX Classes
 90
        0
280
     0
281
     0
  0
CLASS
  1
LAYOUT
  2
AcDbLayout
  3
ObjectDBX Classes
 90
        0
280
     0
281
     0
  0
ENDSEC
  0
SECTION
  2
TABLES
  0
TABLE
  2
VPORT
  5
8
330
0
100
AcDbSymbolTable
 70
     1
  0
VPORT
  5
29
330
8
100
AcDbSymbolTableRecord
100
AcDbViewportTableRecord
  2
*Active
 70
     0
 10
0.0
 20
0.0
 11
1.0
 21
1.0
 12
139.7
 22
107.95
 13
0.0
 23
0.0
 14
10.0
 24
10.0
 15
10.0
 25
10.0
 16
0.0
 26
0.0
 36
1.0
 17
0.0
 27
0.0
 37
0.0
 40
215.9
 41
1.2941176471
 42
50.0
 43
0.0
 44
0.0
 50
0.0
 51
0.0
 71
     0
 72
  2000
 73
     1
 74
     3
 75
     0
 76
     0
 77
     0
 78
     0
281
     0
 65
     1
110
0.0
120
0.0
130
0.0
111
1.0
121
0.0
131
0.0
112
0.0
122
1.0
132
0.0
 79
     0
146
0.0
  0
ENDTAB
  0
TABLE
  2
LTYPE
  5
5
330
0
100
AcDbSymbolTable
 70
     6
  0
LTYPE
  5
14
330
5
100
AcDbSymbolTableRecord
100
AcDbLinetypeTableRecord
  2
ByBlock
 70
     0
  3

 72
    65
 73
     0
 40
0.0
  0
LTYPE
  5
15
330
5
100
AcDbSymbolTableRecord
100
AcDbLinetypeTableRecord
  2
ByLayer
 70
     0
  3

 72
    65
 73
     0
 40
0.0
  0
LTYPE
  5
16
330
5
100
AcDbSymbolTableRecord
100
AcDbLinetypeTableRecord
  2
Continuous
 70
     0
  3
Solid line
 72
    65
 73
     0
 40
0.0
  0
LTYPE
  5
6E
330
5
100
AcDbSymbolTableRecord
100
AcDbLinetypeTableRecord
  2
HIDDEN
 70
     0
  3
Hidden __ __ __ __ __ __ __ __ __ __ __ __ __ __
 72
    65
 73
     2
 40
1.905
 49
1.27
 74
     0
 49
-0.635
 74
     0
  0
LTYPE
  5
6F
330
5
100
AcDbSymbolTableRecord
100
AcDbLinetypeTableRecord
  2
PHANTOM
 70
     0
  3
Phantom ______  __  __  ______  __  __  ______
 72
    65
 73
     6
 40
12.7
 49
6.35
 74
     0
 49
-1.27
 74
     0
 49
1.27
 74
     0
 49
-1.27
 74
     0
 49
1.27
 74
     0
 49
-1.27
 74
     0
  0
LTYPE
  5
70
330
5
100
AcDbSymbolTableRecord
100
AcDbLinetypeTableRecord
  2
CENTER
 70
     0
  3
Center ____ _ ____ _ ____ _ ____ _ ____ _ ____
 72
    65
 73
     4
 40
10.16
 49
6.35
 74
     0
 49
-1.27
 74
     0
 49
1.27
 74
     0
 49
-1.27
 74
     0
  0
LTYPE
  5
71
330
5
100
AcDbSymbolTableRecord
100
AcDbLinetypeTableRecord
  2
CENTERX2
 70
     0
  3
Center (2x) ________  __  ________  __  _____
 72
    65
 73
     4
 40
20.32
 49
12.7
 74
     0
 49
-2.54
 74
     0
 49
2.54
 74
     0
 49
-2.54
 74
     0
  0
LTYPE
  5
72
330
5
100
AcDbSymbolTableRecord
100
AcDbLinetypeTableRecord
  2
DOT2
 70
     0
  3
Dot (.5x) ........................................
 72
    65
 73
     2
 40
0.635
 49
0.0
 74
     0
 49
-0.635
 74
     0
  0
ENDTAB
  0
TABLE
  2
LAYER
  5
2
330
0
100
AcDbSymbolTable
 70
    17
  0
LAYER
  5
10
330
2
100
AcDbSymbolTableRecord
100
AcDbLayerTableRecord
  2
0
 70
     0
 62
     7
  6
Continuous
370
    -3
390
F
  0
LAYER
  5
73
330
2
100
AcDbSymbolTableRecord
100
AcDbLayerTableRecord
  2
FORMAT
 70
     0
 62
     7
  6
Continuous
370
    -3
390
F
  0
LAYER
  5
74
330
2
100
AcDbSymbolTableRecord
100
AcDbLayerTableRecord
  2
YARDIMCI_GEOMETRI
 70
     0
 62
    -6
  6
Continuous
290
     0
370
    -3
390
F
  0
LAYER
  5
75
330
2
100
AcDbSymbolTableRecord
100
AcDbLayerTableRecord
  2
SAYFA_CERCEVESI
 70
     0
 62
     7
  6
Continuous
370
    25
390
F
  0
LAYER
  5
76
330
2
100
AcDbSymbolTableRecord
100
AcDbLayerTableRecord
  2
ANTET
 70
     0
 62
     7
  6
Continuous
370
    -3
390
F
  0
LAYER
  5
77
330
2
100
AcDbSymbolTableRecord
100
AcDbLayerTableRecord
  2
OLCU
 70
     0
 62
   150
  6
Continuous
370
    -3
390
F
  0
LAYER
  5
78
330
2
100
AcDbSymbolTableRecord
100
AcDbLayerTableRecord
  2
METIN
 70
     0
 62
    96
  6
Continuous
370
    -3
390
F
  0
LAYER
  5
79
330
2
100
AcDbSymbolTableRecord
100
AcDbLayerTableRecord
  2
BALON
 70
     0
 62
     5
  6
Continuous
370
    -3
390
F
  0
LAYER
  5
7A
330
2
100
AcDbSymbolTableRecord
100
AcDbLayerTableRecord
  2
VURGU
 70
     0
 62
     7
  6
Continuous
370
    -3
390
F
  0
LAYER
  5
7B
330
2
100
AcDbSymbolTableRecord
100
AcDbLayerTableRecord
  2
SILIK
 70
     0
 62
     7
  6
Continuous
370
    -3
390
F
  0
LAYER
  5
7C
330
2
100
AcDbSymbolTableRecord
100
AcDbLayerTableRecord
  2
MODEL
 70
     0
 62
     7
  6
Continuous
370
    -3
390
F
  0
LAYER
  5
7D
330
2
100
AcDbSymbolTableRecord
100
AcDbLayerTableRecord
  2
DETAYLANDıRMA
 70
     0
 62
   190
  6
Continuous
370
    -3
390
F
  0
LAYER
  5
7E
330
2
100
AcDbSymbolTableRecord
100
AcDbLayerTableRecord
  2
TOLERANS
 70
     0
 62
   230
  6
Continuous
370
    -3
390
F
  0
LAYER
  5
7F
330
2
100
AcDbSymbolTableRecord
100
AcDbLayerTableRecord
  2
MERKEZ_CIZGILERI
 70
     0
 62
    30
  6
Continuous
370
    -3
390
F
  0
LAYER
  5
80
330
2
100
AcDbSymbolTableRecord
100
AcDbLayerTableRecord
  2
KESIT-DETAY_CIZGILERI
 70
     0
 62
     7
  6
Continuous
370
    -3
390
F
  0
LAYER
  5
81
330
2
100
AcDbSymbolTableRecord
100
AcDbLayerTableRecord
  2
\U+041E\U+0421\U+0415\U+0412\U+042B\U+0415
 70
     0
 62
     7
  6
Continuous
370
    -3
390
F
  0
LAYER
  5
82
330
2
100
AcDbSymbolTableRecord
100
AcDbLayerTableRecord
  2
\U+0412\U+041E\U+0414\U+042F\U+041D\U+042B\U+0415_\U+0417\U+041D\U+0410\U+041A\U+0418
 70
     0
 62
    11
  6
Continuous
370
    -3
390
F
  0
ENDTAB
  0
TABLE
  2
STYLE
  5
3
330
0
100
AcDbSymbolTable
 70
     1
  0
STYLE
  5
11
330
3
100
AcDbSymbolTableRecord
100
AcDbTextStyleTableRecord
  2
Standard
 70
     0
 40
0.0
 41
1.0
 50
0.0
 71
     0
 42
3.5
  3
txt
  4

  0
ENDTAB
  0
TABLE
  2
VIEW
  5
6
330
0
100
AcDbSymbolTable
 70
     0
  0
ENDTAB
  0
TABLE
  2
UCS
  5
7
330
0
100
AcDbSymbolTable
 70
     0
  0
ENDTAB
  0
TABLE
  2
APPID
  5
9
330
0
100
AcDbSymbolTable
 70
     1
  0
APPID
  5
12
330
9
100
AcDbSymbolTableRecord
100
AcDbRegAppTableRecord
  2
ACAD
 70
     0
  0
ENDTAB
  0
TABLE
  2
DIMSTYLE
  5
A
330
0
100
AcDbSymbolTable
 70
     1
100
AcDbDimStyleTable
  0
DIMSTYLE
105
27
330
A
100
AcDbSymbolTableRecord
100
AcDbDimStyleTableRecord
  2
ISO-25
 70
     0
 41
2.5
 42
0.625
 43
3.75
 44
1.25
 73
     0
 74
     0
 77
     1
 78
     8
140
2.5
141
2.5
143
0.0393700787
147
0.625
171
     3
172
     1
178
     0
271
     2
272
     2
274
     3
278
    44
283
     0
284
     8
340
11
  0
ENDTAB
  0
TABLE
  2
BLOCK_RECORD
  5
1
330
0
100
AcDbSymbolTable
 70
     2
  0
BLOCK_RECORD
  5
1F
330
1
100
AcDbSymbolTableRecord
100
AcDbBlockTableRecord
  2
*Model_Space
340
22
  0
BLOCK_RECORD
  5
1B
330
1
100
AcDbSymbolTableRecord
100
AcDbBlockTableRecord
  2
*Paper_Space
340
1E
  0
BLOCK_RECORD
  5
23
330
1
100
AcDbSymbolTableRecord
100
AcDbBlockTableRecord
  2
*Paper_Space0
340
26
  0
BLOCK_RECORD
  5
88
330
1
100
AcDbSymbolTableRecord
100
AcDbBlockTableRecord
  2
SW_CENTERMARKSYMBOL_0
340
0
102
{BLKREFS
331
93
102
}
  0
ENDTAB
  0
ENDSEC
  0
SECTION
  2
BLOCKS
  0
BLOCK
  5
20
330
1F
100
AcDbEntity
  8
0
100
AcDbBlockBegin
  2
*Model_Space
 70
     0
 10
0.0
 20
0.0
 30
0.0
  3
*Model_Space
  1

  0
ENDBLK
  5
21
330
1F
100
AcDbEntity
  8
0
100
AcDbBlockEnd
  0
BLOCK
  5
1C
330
1B
100
AcDbEntity
 67
     1
  8
0
100
AcDbBlockBegin
  2
*Paper_Space
 70
     0
 10
0.0
 20
0.0
 30
0.0
  3
*Paper_Space
  1

  0
ENDBLK
  5
1D
330
1B
100
AcDbEntity
 67
     1
  8
0
100
AcDbBlockEnd
  0
BLOCK
  5
24
330
23
100
AcDbEntity
  8
0
100
AcDbBlockBegin
  2
*Paper_Space0
 70
     0
 10
0.0
 20
0.0
 30
0.0
  3
*Paper_Space0
  1

  0
ENDBLK
  5
25
330
23
100
AcDbEntity
  8
0
100
AcDbBlockEnd
  0
BLOCK
  5
89
330
88
100
AcDbEntity
  8
0
100
AcDbBlockBegin
  2
SW_CENTERMARKSYMBOL_0
 70
     0
 10
0.0
 20
0.0
 30
0.0
  3
SW_CENTERMARKSYMBOL_0
  1

  0
LINE
  5
8B
330
88
100
AcDbEntity
  8
FORMAT
 62
     0
100
AcDbLine
 10
0.0
 20
0.0
 30
0.0
 11
0.0
 21
2.5
 31
0.0
  0
LINE
  5
8C
330
88
100
AcDbEntity
  8
FORMAT
 62
     0
100
AcDbLine
 10
0.0
 20
0.0
 30
0.0
 11
-2.5
 21
0.0
 31
0.0
  0
LINE
  5
8D
330
88
100
AcDbEntity
  8
FORMAT
 62
     0
100
AcDbLine
 10
0.0
 20
0.0
 30
0.0
 11
0.0
 21
-2.5
 31
0.0
  0
LINE
  5
8E
330
88
100
AcDbEntity
  8
FORMAT
 62
     0
100
AcDbLine
 10
0.0
 20
0.0
 30
0.0
 11
2.5
 21
0.0
 31
0.0
  0
LINE
  5
8F
330
88
100
AcDbEntity
  8
FORMAT
 62
     0
100
AcDbLine
 10
0.0
 20
5.0
 30
0.0
 11
0.0
 21
82.5
 31
0.0
  0
LINE
  5
90
330
88
100
AcDbEntity
  8
FORMAT
 62
     0
100
AcDbLine
 10
-5.0
 20
0.0
 30
0.0
 11
-82.5
 21
0.0
 31
0.0
  0
LINE
  5
91
330
88
100
AcDbEntity
  8
FORMAT
 62
     0
100
AcDbLine
 10
0.0
 20
-5.0
 30
0.0
 11
0.0
 21
-82.5
 31
0.0
  0
LINE
  5
92
330
88
100
AcDbEntity
  8
FORMAT
 62
     0
100
AcDbLine
 10
5.0
 20
0.0
 30
0.0
 11
82.5
 21
0.0
 31
0.0
  0
ENDBLK
  5
8A
330
88
100
AcDbEntity
  8
0
100
AcDbBlockEnd
  0
ENDSEC
  0
SECTION
  2
ENTITIES
  0
CIRCLE
  5
83
330
1F
100
AcDbEntity
  8
0
  6
Continuous
 62
     7
370
    25
100
AcDbCircle
 10
136.0804557792
 20
118.8813202377
 30
0.0
 40
80.0
  0
CIRCLE
  5
84
330
1F
100
AcDbEntity
  8
0
  6
Continuous
 62
     7
370
    25
100
AcDbCircle
 10
136.0804557792
 20
118.8813202377
 30
0.0
 40
70.50000000000001
  0
CIRCLE
  5
85
330
1F
100
AcDbEntity
  8
0
  6
Continuous
 62
     7
370
    25
100
AcDbCircle
 10
136.0804557792
 20
118.8813202377
 30
0.0
 40
70.32807879260336
  0
CIRCLE
  5
86
330
1F
100
AcDbEntity
  8
0
  6
Continuous
 62
     7
370
    25
100
AcDbCircle
 10
136.0804557792
 20
118.8813202377
 30
0.0
 40
55.27192120739667
  0
CIRCLE
  5
87
330
1F
100
AcDbEntity
  8
0
  6
Continuous
 62
     7
370
    25
100
AcDbCircle
 10
136.0804557792
 20
118.8813202377
 30
0.0
 40
55.10000000000001
  0
INSERT
  5
93
330
1F
100
AcDbEntity
  8
FORMAT
 62
     7
100
AcDbBlockReference
  2
SW_CENTERMARKSYMBOL_0
 10
136.0804557792
 20
118.8813202377
 30
0.0
  0
LINE
  5
94
330
1F
100
AcDbEntity
  8
0
  6
Continuous
 62
     7
370
    25
100
AcDbLine
 10
-175.8523581908
 20
198.8813184496
 30
0.0
 11
-273.5878339396
 21
198.8813184496
 31
0.0
  0
LINE
  5
95
330
1F
100
AcDbEntity
  8
0
  6
Continuous
 62
     7
370
    25
100
AcDbLine
 10
-273.5878339396
 20
38.8813220259
 30
0.0
 11
-175.8523581908
 21
38.8813220259
 31
0.0
  0
ARC
  5
96
330
1F
100
AcDbEntity
  8
0
  6
Continuous
 62
     7
370
    25
100
AcDbCircle
 10
-175.8523578106
 20
196.8813202377
 30
0.0
 40
2.0
100
AcDbArc
 50
74.9315118405
 51
90.0
  0
ARC
  5
97
330
1F
100
AcDbEntity
  8
0
  6
Continuous
 62
     7
370
    25
100
AcDbCircle
 10
-175.8523578106
 20
40.8813202377
 30
0.0
 40
2.0
100
AcDbArc
 50
270.0
 51
285.0684881595
  0
LINE
  5
98
330
1F
100
AcDbEntity
  8
0
  6
Continuous
 62
     7
370
    25
100
AcDbLine
 10
-175.3324101107
 20
38.9500908848
 30
0.0
 11
-110.8432634161
 21
56.3125513788
 31
0.0
  0
LINE
  5
99
330
1F
100
AcDbEntity
  8
0
  6
Continuous
 62
     7
370
    25
100
AcDbLine
 10
-110.8432634161
 20
181.4500890966
 30
0.0
 11
-175.3324101107
 21
198.8125495907
 31
0.0
  0
ARC
  5
9A
330
1F
100
AcDbEntity
  8
0
  6
Continuous
 62
     7
370
    25
100
AcDbCircle
 10
-110.3233155045
 20
183.3813202377
 30
0.0
 40
1.999999999999996
100
AcDbArc
 50
254.9315118405
 51
270.0
  0
ARC
  5
9B
330
1F
100
AcDbEntity
  8
0
  6
Continuous
 62
     7
370
    25
100
AcDbCircle
 10
-110.3233155045
 20
54.3813202377
 30
0.0
 40
1.999999999999989
100
AcDbArc
 50
90.0
 51
105.0684881595
  0
LINE
  5
9C
330
1F
100
AcDbEntity
  8
0
  6
Continuous
 62
     7
370
    25
100
AcDbLine
 10
-23.5878339396
 20
181.3813202377
 30
0.0
 11
-110.3233171986
 21
181.3813202377
 31
0.0
  0
LINE
  5
9D
330
1F
100
AcDbEntity
  8
0
  6
Continuous
 62
     7
370
    25
100
AcDbLine
 10
-110.3233171986
 20
56.3813202377
 30
0.0
 11
-23.5878339396
 21
56.3813202377
 31
0.0
  0
LINE
  5
9E
330
1F
100
AcDbEntity
  8
0
  6
Continuous
 62
     7
370
    25
100
AcDbLine
 10
-273.5878339396
 20
198.8813184496
 30
0.0
 11
-273.5878339396
 21
38.8813220259
 31
0.0
  0
LINE
  5
9F
330
1F
100
AcDbEntity
  8
0
  6
Continuous
 62
     7
370
    25
100
AcDbLine
 10
-23.5878339396
 20
181.3813202377
 30
0.0
 11
-23.5878339396
 21
56.3813202377
 31
0.0
  0
LINE
  5
A0
330
1F
100
AcDbEntity
  8
0
  6
Continuous
 62
     1
370
    25
100
AcDbLine
 10
-175.8523581908
 20
198.8813184496
 30
0.0
 11
-175.8523581908
 21
38.8813220259
 31
0.0
  0
LINE
  5
A1
330
1F
100
AcDbEntity
  8
0
  6
Continuous
 62
     1
370
    25
100
AcDbLine
 10
-175.3324101107
 20
198.8125495907
 30
0.0
 11
-175.3324101107
 21
38.9500908848
 31
0.0
  0
LINE
  5
A2
330
1F
100
AcDbEntity
  8
0
  6
Continuous
 62
     1
370
    25
100
AcDbLine
 10
-110.8432634161
 20
181.4500890966
 30
0.0
 11
-110.8432634161
 21
56.3125513788
 31
0.0
  0
LINE
  5
A3
330
1F
100
AcDbEntity
  8
0
  6
Continuous
 62
     1
370
    25
100
AcDbLine
 10
-110.3233171986
 20
181.3813202377
 30
0.0
 11
-110.3233171986
 21
56.3813202377
 31
0.0
  0
LINE
  5
A4
330
1F
100
AcDbEntity
  8
0
  6
Continuous
 62
     7
370
    25
100
AcDbLine
 10
216.080453991
 20
400.5343214965
 30
0.0
 11
216.080453991
 21
498.2697972452
 31
0.0
  0
LINE
  5
A5
330
1F
100
AcDbEntity
  8
0
  6
Continuous
 62
     7
370
    25
100
AcDbLine
 10
56.0804575673
 20
498.2697972452
 30
0.0
 11
56.0804575673
 21
400.5343214965
 31
0.0
  0
ARC
  5
A6
330
1F
100
AcDbEntity
  8
0
  6
Continuous
 62
     7
370
    25
100
AcDbCircle
 10
214.0804557792
 20
400.5343211163
 30
0.0
 40
2.0
100
AcDbArc
 50
344.9315118405
 51
0.0
  0
ARC
  5
A7
330
1F
100
AcDbEntity
  8
0
  6
Continuous
 62
     7
370
    25
100
AcDbCircle
 10
58.0804557792
 20
400.5343211163
 30
0.0
 40
2.0
100
AcDbArc
 50
180.0
 51
195.0684881595
  0
LINE
  5
A8
330
1F
100
AcDbEntity
  8
0
  6
Continuous
 62
     7
370
    25
100
AcDbLine
 10
56.1492264262
 20
400.0143734163
 30
0.0
 11
73.5116869203
 21
335.5252267217
 31
0.0
  0
LINE
  5
A9
330
1F
100
AcDbEntity
  8
0
  6
Continuous
 62
     7
370
    25
100
AcDbLine
 10
198.6492246381
 20
335.5252267217
 30
0.0
 11
216.0116851321
 21
400.0143734163
 31
0.0
  0
ARC
  5
AA
330
1F
100
AcDbEntity
  8
0
  6
Continuous
 62
     7
370
    25
100
AcDbCircle
 10
200.5804557792
 20
335.0052788102
 30
0.0
 40
2.0
100
AcDbArc
 50
164.9315118405
 51
180.0
  0
ARC
  5
AB
330
1F
100
AcDbEntity
  8
0
  6
Continuous
 62
     7
370
    25
100
AcDbCircle
 10
71.5804557792
 20
335.0052788102
 30
0.0
 40
1.999999999999986
100
AcDbArc
 50
0.0
 51
15.0684881595
  0
LINE
  5
AC
330
1F
100
AcDbEntity
  8
0
  6
Continuous
 62
     7
370
    25
100
AcDbLine
 10
198.5804557792
 20
248.2697972452
 30
0.0
 11
198.5804557792
 21
335.0052805042
 31
0.0
  0
LINE
  5
AD
330
1F
100
AcDbEntity
  8
0
  6
Continuous
 62
     7
370
    25
100
AcDbLine
 10
73.5804557792
 20
335.0052805042
 30
0.0
 11
73.5804557792
 21
248.2697972452
 31
0.0
  0
LINE
  5
AE
330
1F
100
AcDbEntity
  8
0
  6
Continuous
 62
     7
370
    25
100
AcDbLine
 10
216.080453991
 20
498.2697972452
 30
0.0
 11
56.0804575673
 21
498.2697972452
 31
0.0
  0
LINE
  5
AF
330
1F
100
AcDbEntity
  8
0
  6
Continuous
 62
     7
370
    25
100
AcDbLine
 10
198.5804557792
 20
248.2697972452
 30
0.0
 11
73.5804557792
 21
248.2697972452
 31
0.0
  0
LINE
  5
B0
330
1F
100
AcDbEntity
  8
0
  6
Continuous
 62
     1
370
    25
100
AcDbLine
 10
216.080453991
 20
400.5343214965
 30
0.0
 11
56.0804575673
 21
400.5343214965
 31
0.0
  0
LINE
  5
B1
330
1F
100
AcDbEntity
  8
0
  6
Continuous
 62
     1
370
    25
100
AcDbLine
 10
216.0116851321
 20
400.0143734163
 30
0.0
 11
56.1492264262
 21
400.0143734163
 31
0.0
  0
LINE
  5
B2
330
1F
100
AcDbEntity
  8
0
  6
Continuous
 62
     1
370
    25
100
AcDbLine
 10
198.6492246381
 20
335.5252267217
 30
0.0
 11
73.5116869203
 21
335.5252267217
 31
0.0
  0
LINE
  5
B3
330
1F
100
AcDbEntity
  8
0
  6
Continuous
 62
     1
370
    25
100
AcDbLine
 10
198.5804557792
 20
335.0052805042
 30
0.0
 11
73.5804557792
 21
335.0052805042
 31
0.0
  0
LINE
  5
B4
330
1F
100
AcDbEntity
  8
0
  6
Continuous
 62
     7
370
    25
100
AcDbLine
 10
462.6421916667
 20
38.8813220259
 30
0.0
 11
560.3776674154
 21
38.8813220259
 31
0.0
  0
LINE
  5
B5
330
1F
100
AcDbEntity
  8
0
  6
Continuous
 62
     7
370
    25
100
AcDbLine
 10
560.3776674154
 20
198.8813184496
 30
0.0
 11
462.6421916667
 21
198.8813184496
 31
0.0
  0
ARC
  5
B6
330
1F
100
AcDbEntity
  8
0
  6
Continuous
 62
     7
370
    25
100
AcDbCircle
 10
462.6421912865
 20
40.8813202377
 30
0.0
 40
2.0
100
AcDbArc
 50
254.9315118405
 51
270.0
  0
ARC
  5
B7
330
1F
100
AcDbEntity
  8
0
  6
Continuous
 62
     7
370
    25
100
AcDbCircle
 10
462.6421912865
 20
196.8813202377
 30
0.0
 40
2.0
100
AcDbArc
 50
90.0
 51
105.0684881595
  0
LINE
  5
B8
330
1F
100
AcDbEntity
  8
0
  6
Continuous
 62
     7
370
    25
100
AcDbLine
 10
462.1222435865
 20
198.8125495907
 30
0.0
 11
397.6330968919
 21
181.4500890966
 31
0.0
  0
LINE
  5
B9
330
1F
100
AcDbEntity
  8
0
  6
Continuous
 62
     7
370
    25
100
AcDbLine
 10
397.6330968919
 20
56.3125513788
 30
0.0
 11
462.1222435865
 21
38.9500908848
 31
0.0
  0
ARC
  5
BA
330
1F
100
AcDbEntity
  8
0
  6
Continuous
 62
     7
370
    25
100
AcDbCircle
 10
397.1131489804
 20
54.3813202377
 30
0.0
 40
1.999999999999993
100
AcDbArc
 50
74.9315118405
 51
90.0
  0
ARC
  5
BB
330
1F
100
AcDbEntity
  8
0
  6
Continuous
 62
     7
370
    25
100
AcDbCircle
 10
397.1131489804
 20
183.3813202377
 30
0.0
 40
2.0
100
AcDbArc
 50
270.0
 51
285.0684881595
  0
LINE
  5
BC
330
1F
100
AcDbEntity
  8
0
  6
Continuous
 62
     7
370
    25
100
AcDbLine
 10
310.3776674154
 20
56.3813202377
 30
0.0
 11
397.1131506744
 21
56.3813202377
 31
0.0
  0
LINE
  5
BD
330
1F
100
AcDbEntity
  8
0
  6
Continuous
 62
     7
370
    25
100
AcDbLine
 10
397.1131506744
 20
181.3813202377
 30
0.0
 11
310.3776674154
 21
181.3813202377
 31
0.0
  0
LINE
  5
BE
330
1F
100
AcDbEntity
  8
0
  6
Continuous
 62
     7
370
    25
100
AcDbLine
 10
560.3776674154
 20
118.8813202377
 30
0.0
 11
560.3776674154
 21
198.8813184496
 31
0.0
  0
LINE
  5
BF
330
1F
100
AcDbEntity
  8
0
  6
Continuous
 62
     7
370
    25
100
AcDbLine
 10
560.3776674154
 20
38.8813220259
 30
0.0
 11
560.3776674154
 21
118.8813202377
 31
0.0
  0
LINE
  5
C0
330
1F
100
AcDbEntity
  8
0
  6
Continuous
 62
     7
370
    25
100
AcDbLine
 10
310.3776674154
 20
118.8813202377
 30
0.0
 11
310.3776674154
 21
181.3813202377
 31
0.0
  0
LINE
  5
C1
330
1F
100
AcDbEntity
  8
0
  6
Continuous
 62
     7
370
    25
100
AcDbLine
 10
310.3776674154
 20
56.3813202377
 30
0.0
 11
310.3776674154
 21
118.8813202377
 31
0.0
  0
LINE
  5
C2
330
1F
100
AcDbEntity
  8
0
  6
Continuous
 62
     1
370
    25
100
AcDbLine
 10
462.6421916667
 20
118.8813202377
 30
0.0
 11
462.6421916667
 21
198.8813184496
 31
0.0
  0
LINE
  5
C3
330
1F
100
AcDbEntity
  8
0
  6
Continuous
 62
     1
370
    25
100
AcDbLine
 10
462.6421916667
 20
38.8813220259
 30
0.0
 11
462.6421916667
 21
118.8813202377
 31
0.0
  0
LINE
  5
C4
330
1F
100
AcDbEntity
  8
0
  6
Continuous
 62
     1
370
    25
100
AcDbLine
 10
462.1222435865
 20
118.8813202377
 30
0.0
 11
462.1222435865
 21
198.8125495907
 31
0.0
  0
LINE
  5
C5
330
1F
100
AcDbEntity
  8
0
  6
Continuous
 62
     1
370
    25
100
AcDbLine
 10
462.1222435865
 20
38.9500908848
 30
0.0
 11
462.1222435865
 21
118.8813202377
 31
0.0
  0
LINE
  5
C6
330
1F
100
AcDbEntity
  8
0
  6
Continuous
 62
     1
370
    25
100
AcDbLine
 10
397.6330968919
 20
118.8813202377
 30
0.0
 11
397.6330968919
 21
181.4500890966
 31
0.0
  0
LINE
  5
C7
330
1F
100
AcDbEntity
  8
0
  6
Continuous
 62
     1
370
    25
100
AcDbLine
 10
397.6330968919
 20
56.3125513788
 30
0.0
 11
397.6330968919
 21
118.8813202377
 31
0.0
  0
LINE
  5
C8
330
1F
100
AcDbEntity
  8
0
  6
Continuous
 62
     1
370
    25
100
AcDbLine
 10
397.1131506744
 20
118.8813202377
 30
0.0
 11
397.1131506744
 21
181.3813202377
 31
0.0
  0
LINE
  5
C9
330
1F
100
AcDbEntity
  8
0
  6
Continuous
 62
     1
370
    25
100
AcDbLine
 10
397.1131506744
 20
56.3813202377
 30
0.0
 11
397.1131506744
 21
118.8813202377
 31
0.0
  0
LINE
  5
CA
330
1F
100
AcDbEntity
  8
0
  6
Continuous
 62
     7
370
    25
100
AcDbLine
 10
56.0804575673
 20
-182.2876464458
 30
0.0
 11
56.0804575673
 21
-280.0231221946
 31
0.0
  0
LINE
  5
CB
330
1F
100
AcDbEntity
  8
0
  6
Continuous
 62
     7
370
    25
100
AcDbLine
 10
216.080453991
 20
-280.0231221946
 30
0.0
 11
216.080453991
 21
-182.2876464458
 31
0.0
  0
ARC
  5
CC
330
1F
100
AcDbEntity
  8
0
  6
Continuous
 62
     7
370
    25
100
AcDbCircle
 10
58.0804557792
 20
-182.2876460656
 30
0.0
 40
2.0
100
AcDbArc
 50
164.9315118405
 51
180.0
  0
ARC
  5
CD
330
1F
100
AcDbEntity
  8
0
  6
Continuous
 62
     7
370
    25
100
AcDbCircle
 10
214.0804557792
 20
-182.2876460656
 30
0.0
 40
2.0
100
AcDbArc
 50
0.0
 51
15.0684881595
  0
LINE
  5
CE
330
1F
100
AcDbEntity
  8
0
  6
Continuous
 62
     7
370
    25
100
AcDbLine
 10
216.0116851321
 20
-181.7676983657
 30
0.0
 11
198.6492246381
 21
-117.2785516711
 31
0.0
  0
LINE
  5
CF
330
1F
100
AcDbEntity
  8
0
  6
Continuous
 62
     7
370
    25
100
AcDbLine
 10
73.5116869203
 20
-117.2785516711
 30
0.0
 11
56.1492264262
 21
-181.7676983657
 31
0.0
  0
ARC
  5
D0
330
1F
100
AcDbEntity
  8
0
  6
Continuous
 62
     7
370
    25
100
AcDbCircle
 10
71.5804557792
 20
-116.7586037595
 30
0.0
 40
1.999999999999986
100
AcDbArc
 50
344.9315118405
 51
0.0
  0
ARC
  5
D1
330
1F
100
AcDbEntity
  8
0
  6
Continuous
 62
     7
370
    25
100
AcDbCircle
 10
200.5804557792
 20
-116.7586037595
 30
0.0
 40
1.999999999999996
100
AcDbArc
 50
180.0
 51
195.0684881595
  0
LINE
  5
D2
330
1F
100
AcDbEntity
  8
0
  6
Continuous
 62
     7
370
    25
100
AcDbLine
 10
73.5804557792
 20
-30.0231221946
 30
0.0
 11
73.5804557792
 21
-116.7586054536
 31
0.0
  0
LINE
  5
D3
330
1F
100
AcDbEntity
  8
0
  6
Continuous
 62
     7
370
    25
100
AcDbLine
 10
198.5804557792
 20
-116.7586054536
 30
0.0
 11
198.5804557792
 21
-30.0231221946
 31
0.0
  0
LINE
  5
D4
330
1F
100
AcDbEntity
  8
0
  6
Continuous
 62
     7
370
    25
100
AcDbLine
 10
56.0804575673
 20
-280.0231221946
 30
0.0
 11
216.080453991
 21
-280.0231221946
 31
0.0
  0
LINE
  5
D5
330
1F
100
AcDbEntity
  8
0
  6
Continuous
 62
     7
370
    25
100
AcDbLine
 10
73.5804557792
 20
-30.0231221946
 30
0.0
 11
198.5804557792
 21
-30.0231221946
 31
0.0
  0
LINE
  5
D6
330
1F
100
AcDbEntity
  8
0
  6
Continuous
 62
     1
370
    25
100
AcDbLine
 10
56.0804575673
 20
-182.2876464458
 30
0.0
 11
216.080453991
 21
-182.2876464458
 31
0.0
  0
LINE
  5
D7
330
1F
100
AcDbEntity
  8
0
  6
Continuous
 62
     1
370
    25
100
AcDbLine
 10
56.1492264262
 20
-181.7676983657
 30
0.0
 11
216.0116851321
 21
-181.7676983657
 31
0.0
  0
LINE
  5
D8
330
1F
100
AcDbEntity
  8
0
  6
Continuous
 62
     1
370
    25
100
AcDbLine
 10
73.5116869203
 20
-117.2785516711
 30
0.0
 11
198.6492246381
 21
-117.2785516711
 31
0.0
  0
LINE
  5
D9
330
1F
100
AcDbEntity
  8
0
  6
Continuous
 62
     1
370
    25
100
AcDbLine
 10
73.5804557792
 20
-116.7586054536
 30
0.0
 11
198.5804557792
 21
-116.7586054536
 31
0.0
  0
LINE
  5
DA
330
1F
100
AcDbEntity
  8
0
  6
Continuous
 62
     7
370
    25
100
AcDbLine
 10
457.8378195759
 20
-53.9863645801
 30
0.0
 11
388.7284019114
 21
-14.090346973
 31
0.0
  0
LINE
  5
DB
330
1F
100
AcDbEntity
  8
0
  6
Continuous
 62
     7
370
    25
100
AcDbLine
 10
308.7349056963
 20
-152.6581608653
 30
0.0
 11
377.8443233608
 21
-192.5541784724
 31
0.0
  0
LINE
  5
DC
330
1F
100
AcDbEntity
  8
0
  6
Continuous
 62
     7
370
    25
100
AcDbLine
 10
462.0344286973
 20
-56.9771786024
 30
0.0
 11
460.9697966697
 21
-56.1050342162
 31
0.0
  0
SPLINE
  5
DD
330
1F
100
AcDbEntity
  8
0
  6
Continuous
 62
     7
370
    25
100
AcDbSpline
210
0.0
220
0.0
230
1.0
 70
     8
 71
     3
 72
     9
 73
     5
 74
     0
 42
0.000000001
 43
0.00000001
 40
0.0
 40
0.0
 40
0.0
 40
0.0
 40
0.7505792074294453
 40
0.9999999999999999
 40
0.9999999999999999
 40
0.9999999999999999
 40
0.9999999999999999
 10
381.2264011708103
 20
-194.1869246000144
 30
0.0
 10
381.6101589653907
 20
-194.3584101535627
 30
0.0
 10
382.1214411735598
 20
-194.5868811155223
 30
0.0
 10
382.6633812530896
 20
-194.7506957677478
 30
0.0
 10
382.7985523772516
 20
-194.7915545481407
 30
0.0
  0
LINE
  5
DE
330
1F
100
AcDbEntity
  8
0
  6
Continuous
 62
     7
370
    25
100
AcDbLine
 10
386.5870219544
 20
-195.8336283226
 30
0.0
 11
439.0565227007
 21
-206.442432341
 31
0.0
  0
LINE
  5
DF
330
1F
100
AcDbEntity
  8
0
  6
Continuous
 62
     7
370
    25
100
AcDbLine
 10
500.4758211175
 20
-100.0495586126
 30
0.0
 11
465.049810486
 21
-59.9173638359
 31
0.0
  0
LINE
  5
E0
330
1F
100
AcDbEntity
  8
0
  6
Continuous
 62
     7
370
    25
100
AcDbLine
 10
556.7558092181
 20
-131.2972148349
 30
0.0
 11
498.2400704154
 21
-97.5167978606
 31
0.0
  0
LINE
  5
E1
330
1F
100
AcDbEntity
  8
0
  6
Continuous
 62
     7
370
    25
100
AcDbLine
 10
435.7451501803
 20
-205.7729039847
 30
0.0
 11
494.2608889829
 21
-239.5533209591
 31
0.0
  0
LWPOLYLINE
  5
E2
330
1F
100
AcDbEntity
  8
0
  6
Continuous
 62
     7
370
    25
100
AcDbPolyline
 90
      118
 70
   128
 43
0.0
 10
292.1631125733
 20
-116.0305776621
 10
292.2446614569
 20
-112.4771677008
 10
292.4890815681
 20
-108.8398437747
 10
292.895661679
 20
-105.1290975434
 10
293.4632269461
 20
-101.3556289898
 10
294.1901494474
 20
-97.53031182
 10
295.0743323773
 20
-93.6641786328
 10
296.1132153146
 20
-89.7683821369
 10
297.3038163698
 20
-85.8541434428
 10
298.6426953064
 20
-81.9327596644
 10
300.1259956879
 20
-78.0155293974
 10
301.7494396089
 20
-74.1137466355
 10
303.5083435011
 20
-70.2386688316
 10
305.3976365717
 20
-66.4014636681
 10
307.4118739747
 20
-62.613195369
 10
309.5452473476
 20
-58.8847851575
 10
311.7916032504
 20
-55.2269884432
 10
314.1444695078
 20
-51.6503461555
 10
316.5970578429
 20
-48.1651680132
 10
319.1423007561
 20
-44.7815081935
 10
321.7728567932
 20
-41.5091227465
 10
324.4811395216
 20
-38.3574467839
 10
327.2593451887
 20
-35.3355602607
 10
330.099460625
 20
-32.4521894973
 10
332.993297488
 20
-29.7156326568
 10
335.932512019
 20
-27.1337909262
 10
338.9086294085
 20
-24.7141057804
 10
341.9130694802
 20
-22.4635563228
 10
344.9371690812
 20
-20.3886220253
 10
347.9722094113
 20
-18.4952912852
 10
351.0094394019
 20
-16.7890296787
 10
354.0401017281
 20
-15.2747466932
 10
357.0554588214
 20
-13.9568111283
 10
360.0468155894
 20
-12.8390258136
 10
363.0055480625
 20
-11.9246110706
 10
365.9231254551
 20
-11.2162041444
 10
368.7911355196
 20
-10.7158506514
 10
371.6013082542
 20
-10.4249848091
 10
374.3455422443
 20
-10.3444507316
 10
377.0159244191
 20
-10.4744849407
 10
379.6047577104
 20
-10.8147064828
 10
382.1045742235
 20
-11.3641336601
 10
384.5081668472
 20
-12.1211870753
 10
386.8086076934
 20
-13.0836820288
 10
388.9992639017
 20
-14.248840688
 10
391.0738160791
 20
-15.6133057765
 10
393.0262846415
 20
-17.1731466611
 10
394.8510429844
 20
-18.9238578316
 10
396.542822752
 20
-20.8604014876
 10
398.0967559832
 20
-22.9771832071
 10
399.5083540386
 20
-25.2681097404
 10
400.7735497473
 20
-27.7265677205
 10
401.888697407
 20
-30.3454738539
 10
402.8505780521
 20
-33.1172749212
 10
403.6564152589
 20
-36.0339827597
 10
404.3038962191
 20
-39.0871826303
 10
404.7911453981
 20
-42.2680742807
 10
405.116761413
 20
-45.567485256
 10
405.2798064964
 20
-48.9759016973
 10
405.2798064964
 20
-52.4834987599
 10
405.116761413
 20
-56.0801630476
 10
404.7911453981
 20
-59.7555222714
 10
404.3038962191
 20
-63.4989798492
 10
403.6564152589
 20
-67.2997453242
 10
402.8505780521
 20
-71.1468529975
 10
401.888697407
 20
-75.0292178186
 10
400.7735497473
 20
-78.9356460342
 10
399.5083540386
 20
-82.8548678864
 10
398.0967559832
 20
-86.7755908432
 10
396.542822752
 20
-90.6865056823
 10
394.8510429844
 20
-94.576336681
 10
393.0262846415
 20
-98.4338689894
 10
391.0738160791
 20
-102.2479820926
 10
388.9992639017
 20
-106.0076741413
 10
386.8086076934
 20
-109.7021106213
 10
384.5081668472
 20
-113.3206380407
 10
382.1045742235
 20
-116.8528204289
 10
379.6047577104
 20
-120.2884743171
 10
377.0159244191
 20
-123.6176991546
 10
374.3455422443
 20
-126.8308909959
 10
371.6013082542
 20
-129.9187820416
 10
368.7911355196
 20
-132.8724725763
 10
365.9231254551
 20
-135.6834530201
 10
363.0055480625
 20
-138.3436092495
 10
360.0468155894
 20
-140.8452743066
 10
357.0554588214
 20
-143.1812360011
 10
354.0401017281
 20
-145.3447576313
 10
351.0094394019
 20
-147.3296028866
 10
347.9722094113
 20
-149.1300523849
 10
344.9371690812
 20
-150.7409046213
 10
341.9130694802
 20
-152.1575214032
 10
338.9086294085
 20
-153.3758246159
 10
335.932512019
 20
-154.3922914674
 10
332.993297488
 20
-155.2039946006
 10
330.099460625
 20
-155.8085906838
 10
327.2593451887
 20
-156.2043474049
 10
324.4811395216
 20
-156.3901088683
 10
321.7728567932
 20
-156.3653495855
 10
319.1423007561
 20
-156.1301394909
 10
316.5970578429
 20
-155.6851545873
 10
314.1444695078
 20
-155.0316746624
 10
311.7916032504
 20
-154.1715939318
 10
309.5452473476
 20
-153.1073845368
 10
307.4118739747
 20
-151.8421147922
 10
305.3976365717
 20
-150.3794354971
 10
303.5083435011
 20
-148.7235616819
 10
301.7494396089
 20
-146.8792710855
 10
300.1259956879
 20
-144.8518767773
 10
298.6426953064
 20
-142.6472286774
 10
297.3038163698
 20
-140.2716816152
 10
296.1132153146
 20
-137.7320816394
 10
295.0743323773
 20
-135.0357538515
 10
294.1901494474
 20
-132.1904765456
 10
293.4632269461
 20
-129.2044462311
 10
292.895661679
 20
-126.0862745866
 10
292.4890815681
 20
-122.8449557592
 10
292.2446614569
 20
-119.4898332867
 10
292.1631125733
 20
-116.0305776621
  0
LWPOLYLINE
  5
E3
330
1F
100
AcDbEntity
  8
0
  6
Continuous
 62
     7
370
    25
100
AcDbPolyline
 90
      110
 70
   128
 43
0.0
 10
298.880624803
 20
-112.1526403962
 10
298.9634275552
 20
-108.7883405631
 10
299.2115513208
 20
-105.3396197664
 10
299.6241742361
 20
-101.817933542
 10
300.1999317969
 20
-98.2349761601
 10
300.9369063216
 20
-94.6026547688
 10
301.8326480246
 20
-90.933033882
 10
302.8841855532
 20
-87.2383019201
 10
304.0880207188
 20
-83.5307354677
 10
305.4401627419
 20
-79.8226490864
 10
306.936109812
 20
-76.1263603318
 10
308.5708991379
 20
-72.454148693
 10
310.3390990444
 20
-68.8182114849
 10
312.2348353144
 20
-65.2306273491
 10
314.2518096284
 20
-61.7033182317
 10
316.3833232716
 20
-58.2479931117
 10
318.6222929392
 20
-54.876138877
 10
320.9612849809
 20
-51.5989488438
 10
323.3925259372
 20
-48.427316674
 10
325.9079420526
 20
-45.3717709793
 10
328.4991763971
 20
-42.4424715201
 10
331.1576204771
 20
-39.6491392464
 10
333.8744432106
 20
-37.0010578209
 10
336.6406199037
 20
-34.5070203897
 10
339.446963202
 20
-32.1753177978
 10
342.2841481152
 20
-30.0136937244
 10
345.14275153
 20
-28.029327956
 10
348.0132767407
 20
-26.2288161419
 10
350.886188352
 20
-24.6181313936
 10
353.751942737
 20
-23.2026249536
 10
356.6010203055
 20
-21.9870075665
 10
359.4239562912
 20
-20.9753134553
 10
362.2113736789
 20
-20.1708995641
 10
364.9540139913
 20
-19.5764399524
 10
367.6427642895
 20
-19.1939162918
 10
370.2686933929
 20
-19.0245847894
 10
372.8230795381
 20
-19.0690210577
 10
375.2974340863
 20
-19.3270729681
 10
377.6835410363
 20
-19.7978834684
 10
379.9734741463
 20
-20.4798867823
 10
382.159623276
 20
-21.370820579
 10
384.234731265
 20
-22.4677198933
 10
386.1918992009
 20
-23.7669475442
 10
388.0246259324
 20
-25.2641865343
 10
389.7268291425
 20
-26.9544583028
 10
391.2928479825
 20
-28.8321516234
 10
392.7174825849
 20
-30.8910271706
 10
393.9960046003
 20
-33.1242479392
 10
395.1241598312
 20
-35.5243944542
 10
396.098199842
 20
-38.0834951918
 10
396.914900399
 20
-40.7930433115
 10
397.5715377621
 20
-43.6440438028
 10
398.0659361002
 20
-46.6270226146
 10
398.3964464179
 20
-49.7320749435
 10
398.5619781654
 20
-52.9488815858
 10
398.5619781654
 20
-56.2667583662
 10
398.3964464179
 20
-59.6746838961
 10
398.0659361002
 20
-63.1613353152
 10
397.5715377621
 20
-66.715134298
 10
396.914900399
 20
-70.3242721512
 10
396.098199842
 20
-73.976762663
 10
395.1241598312
 20
-77.6604660593
 10
393.9960046003
 20
-81.3631528784
 10
392.7174825849
 20
-85.0725237453
 10
391.2928479825
 20
-88.7762473929
 10
389.7268291425
 20
-92.4620275799
 10
388.0246259324
 20
-96.1176213417
 10
386.1918992009
 20
-99.7308815753
 10
384.234731265
 20
-103.289807226
 10
382.159623276
 20
-106.7825752268
 10
379.9734741463
 20
-110.1975830823
 10
377.6835410363
 20
-113.523486888
 10
375.2974340863
 20
-116.7492378322
 10
372.8230795381
 20
-119.8641186946
 10
370.2686933929
 20
-122.85778643
 10
367.6427642895
 20
-125.720288136
 10
364.9540139913
 20
-128.4421294915
 10
362.2113736789
 20
-131.0142549818
 10
359.4239562912
 20
-133.4281247033
 10
356.6010203055
 20
-135.6757231052
 10
353.751942737
 20
-137.7495806603
 10
350.886188352
 20
-139.6428038048
 10
348.0132767407
 20
-141.3491121989
 10
345.14275153
 20
-142.8628382474
 10
342.2841481152
 20
-144.1789457293
 10
339.446963202
 20
-145.2930656304
 10
336.6406199037
 20
-146.2014980426
 10
333.8744432106
 20
-146.9012202401
 10
331.1576204771
 20
-147.3899155746
 10
328.4991763971
 20
-147.6659575021
 10
325.9079420526
 20
-147.7284335355
 10
323.3925259372
 20
-147.5771254691
 10
320.9612849809
 20
-147.2125443578
 10
318.6222929392
 20
-146.6358970532
 10
316.3833232716
 20
-145.8491021722
 10
314.2518096284
 20
-144.8547703209
 10
312.2348353144
 20
-143.6562101776
 10
310.3390990444
 20
-142.2573965499
 10
308.5708991379
 20
-140.6629794989
 10
306.936109812
 20
-138.8782554393
 10
305.4401627419
 20
-136.9091504078
 10
304.0880207188
 20
-134.7622139763
 10
302.8841855532
 20
-132.444566021
 10
301.8326480246
 20
-129.9639134471
 10
300.9369063216
 20
-127.328493917
 10
300.1999317969
 20
-124.5470652002
 10
299.6241742361
 20
-121.6288633483
 10
299.2115513208
 20
-118.5835814013
 10
298.9634275552
 20
-115.4213382065
 10
298.880624803
 20
-112.1526403962
  0
ARC
  5
E4
330
1F
100
AcDbEntity
  8
0
  6
Continuous
 62
     7
370
    25
100
AcDbCircle
 10
444.4320023368
 20
-77.2007943842
 30
0.0
 40
26.80719468679604
100
AcDbArc
 50
52.2884546096
 51
59.9945212034
  0
ARC
  5
E5
330
1F
100
AcDbEntity
  8
0
  6
Continuous
 62
     7
370
    25
100
AcDbCircle
 10
391.2560044498
 20
-169.3104289984
 30
0.0
 40
26.83551898585432
100
AcDbArc
 50
240.0149843799
 51
247.659940495
  0
ARC
  5
E6
330
1F
100
AcDbEntity
  8
0
  6
Continuous
 62
     7
370
    25
100
AcDbCircle
 10
442.5908430392
 20
-79.8354871685
 30
0.0
 40
30.01690946897158
100
AcDbArc
 50
32.3484680024
 51
49.2635328917
  0
ARC
  5
E7
330
1F
100
AcDbEntity
  8
0
  6
Continuous
 62
     7
370
    25
100
AcDbCircle
 10
392.5991277324
 20
-166.4262340657
 30
0.0
 40
30.01432388916207
100
AcDbArc
 50
251.2673170181
 51
267.6272485083
  0
LWPOLYLINE
  5
E8
330
1F
100
AcDbEntity
  8
0
  6
Continuous
 62
     7
370
    25
100
AcDbPolyline
 90
        3
 70
   128
 43
0.0
 10
500.4758211175
 20
-100.0495586126
 10
500.8285981421
 20
-100.4586675179
 10
502.1846045043
 20
-102.2286869636
  0
LWPOLYLINE
  5
E9
330
1F
100
AcDbEntity
  8
0
  6
Continuous
 62
     7
370
    25
100
AcDbPolyline
 90
        3
 70
   128
 43
0.0
 10
442.6340156909
 20
-206.8897103205
 10
441.2996411987
 20
-206.7850792597
 10
439.0565227007
 20
-206.442432341
  0
LWPOLYLINE
  5
EA
330
1F
100
AcDbEntity
  8
0
  6
Continuous
 62
     7
370
    25
100
AcDbPolyline
 90
       54
 70
   128
 43
0.0
 10
556.7558092181
 20
-131.2972148349
 10
557.4649747253
 20
-131.725624269
 10
559.2665839117
 20
-133.0008584074
 10
560.9426086605
 20
-134.4711166796
 10
562.4868165064
 20
-136.1309262097
 10
563.8934623071
 20
-137.9741145419
 10
565.1573119508
 20
-139.9938248515
 10
566.2736660641
 20
-142.1825418034
 10
567.2383679138
 20
-144.5321280545
 10
568.0478323838
 20
-147.0338364243
 10
568.6990486085
 20
-149.6783638877
 10
569.1895931441
 20
-152.4558721089
 10
569.5176378711
 20
-155.3560296478
 10
569.6819684335
 20
-158.3680447565
 10
569.6819684335
 20
-161.4807157589
 10
569.5176378711
 20
-164.6824628964
 10
569.1895931441
 20
-167.9613728151
 10
568.6990486085
 20
-171.3052517016
 10
568.0478323838
 20
-174.7016574139
 10
567.2383679138
 20
-178.1379535675
 10
566.2736660641
 20
-181.6013608659
 10
565.1573119508
 20
-185.0789928416
 10
563.8934623071
 20
-188.5579128898
 10
562.4868165064
 20
-192.0251798939
 10
560.9426086605
 20
-195.4678938527
 10
559.2665839117
 20
-198.8732491101
 10
557.4649747253
 20
-202.2285769392
 10
555.5444877184
 20
-205.5213942104
 10
553.5122615136
 20
-208.7394550992
 10
551.3758588361
 20
-211.8707860665
 10
549.143229635
 20
-214.903734525
 10
546.8226755224
 20
-217.8270228285
 10
544.422831334
 20
-220.629774126
 10
541.9526229821
 20
-223.3015640693
 10
539.4212424307
 20
-225.8324504686
 10
536.8381029153
 20
-228.213020437
 10
534.2128178684
 20
-230.4344147235
 10
531.5551508709
 20
-232.4883748568
 10
528.8749896394
 20
-234.3672551201
 10
526.1823040027
 20
-236.0640681039
 10
523.4871113694
 20
-237.5725015992
 10
520.7994377914
 20
-238.8869441166
 10
518.1292814974
 20
-240.0025059388
 10
515.4865759726
 20
-240.9150373913
 10
512.8811519696
 20
-241.6211416483
 10
510.3227026048
 20
-242.1181948818
 10
507.820744505
 20
-242.4043473983
 10
505.3845855382
 20
-242.4785331416
 10
503.023287277
 20
-242.3404761537
 10
500.7456373391
 20
-241.990691332
 10
498.5601046071
 20
-241.4304798626
 10
496.4748207884
 20
-240.6619246561
 10
494.4975435373
 20
-239.6878873017
 10
494.2608889829
 20
-239.5533209591
  0
LWPOLYLINE
  5
EB
330
1F
100
AcDbEntity
  8
0
  6
Continuous
 62
     1
370
    25
100
AcDbPolyline
 90
       57
 70
   128
 43
0.0
 10
460.8296004465
 20
-55.9936148638
 10
462.1357023059
 20
-57.0691642681
 10
463.9604606489
 20
-58.8198754387
 10
465.6522404165
 20
-60.7564190946
 10
467.2061736477
 20
-62.8732008142
 10
468.617771703
 20
-65.1641273475
 10
469.8829674118
 20
-67.6225853276
 10
470.9981150715
 20
-70.241491461
 10
471.9599957165
 20
-73.0132925283
 10
472.7658329234
 20
-75.9300003668
 10
473.4133138836
 20
-78.9832002374
 10
473.9005630625
 20
-82.1640918877
 10
474.2261790774
 20
-85.4635028631
 10
474.3892241609
 20
-88.8719193044
 10
474.3892241609
 20
-92.379516367
 10
474.2261790774
 20
-95.9761806547
 10
473.9005630625
 20
-99.6515398785
 10
473.4133138836
 20
-103.3949974563
 10
472.7658329234
 20
-107.1957629313
 10
471.9599957165
 20
-111.0428706046
 10
470.9981150715
 20
-114.9252354257
 10
469.8829674118
 20
-118.8316636413
 10
468.617771703
 20
-122.7508854935
 10
467.2061736477
 20
-126.6716084503
 10
465.6522404165
 20
-130.5825232894
 10
463.9604606489
 20
-134.4723542881
 10
462.1357023059
 20
-138.3298865965
 10
460.1832337436
 20
-142.1439996996
 10
458.1086815662
 20
-145.9036917483
 10
455.9180253578
 20
-149.5981282284
 10
453.6175845117
 20
-153.2166556478
 10
451.2139918879
 20
-156.748838036
 10
448.7141753749
 20
-160.1844919242
 10
446.1253420836
 20
-163.5137167617
 10
443.4549599088
 20
-166.726908603
 10
440.7107259187
 20
-169.8147996486
 10
437.9005531841
 20
-172.7684901834
 10
435.0325431195
 20
-175.5794706272
 10
432.1149657269
 20
-178.2396268566
 10
429.1562332539
 20
-180.7412919136
 10
426.1648764859
 20
-183.0772536082
 10
423.1495193926
 20
-185.2407752384
 10
420.1188570663
 20
-187.2256204937
 10
417.0816270757
 20
-189.0260699919
 10
414.0465867456
 20
-190.6369222283
 10
411.0224871447
 20
-192.0535390102
 10
408.018047073
 20
-193.2718422229
 10
405.0419296834
 20
-194.2883090745
 10
402.1027151525
 20
-195.1000122077
 10
399.2088782894
 20
-195.7046082909
 10
396.3687628531
 20
-196.100365012
 10
393.590557186
 20
-196.2861264754
 10
390.8822744577
 20
-196.2613671925
 10
388.2517184206
 20
-196.0261570979
 10
385.7064755073
 20
-195.5811721944
 10
383.2538871722
 20
-194.9276922695
 10
381.0557446299
 20
-194.1317863112
  0
ARC
  5
EC
330
1F
100
AcDbEntity
  8
0
  6
Continuous
 62
     1
370
    25
100
AcDbCircle
 10
486.9695289271
 20
-163.1772817636
 30
0.0
 40
120.8521502041832
100
AcDbArc
 50
142.7369872533
 51
157.2683890767
  0
LWPOLYLINE
  5
ED
330
1F
100
AcDbEntity
  8
0
  6
Continuous
 62
     1
370
    25
100
AcDbPolyline
 90
       49
 70
   128
 43
0.0
 10
467.9494135648
 20
-63.7744238485
 10
468.9417821864
 20
-65.4263184116
 10
470.2058926138
 20
-67.8826652448
 10
471.3200761643
 20
-70.4993218386
 10
472.2811296775
 20
-73.2687410585
 10
473.086281998
 20
-76.1829377842
 10
473.7332045125
 20
-79.233513245
 10
474.220032223
 20
-82.4116725126
 10
474.545369015
 20
-85.7082465549
 10
474.7082718528
 20
-89.1137344403
 10
474.7082718528
 20
-92.6183162675
 10
474.545369015
 20
-96.211887766
 10
474.220032223
 20
-99.884087673
 10
473.7332045125
 20
-103.6243262509
 10
473.086281998
 20
-107.4218225483
 10
472.2811296775
 20
-111.265628356
 10
471.3200761643
 20
-115.1446563435
 10
470.2058926138
 20
-119.0477218827
 10
468.9417821864
 20
-122.9635795489
 10
467.5313958529
 20
-126.8809292061
 10
465.9788007842
 20
-130.7884829247
 10
464.2884750829
 20
-134.6749680231
 10
462.46528671
 20
-138.5291848607
 10
460.5144934849
 20
-142.340019005
 10
458.441724646
 20
-146.0964822956
 10
456.252951875
 20
-149.7877417385
 10
453.9544892965
 20
-153.4031590502
 10
451.5529618683
 20
-156.9323028225
 10
449.0552948446
 20
-160.3650063163
 10
446.4686874337
 20
-163.6913705013
 10
443.8006022621
 20
-166.9017944733
 10
441.0587258614
 20
-169.9870347665
 10
438.250968668
 20
-172.9381871027
 10
435.3854241941
 20
-175.7467525478
 10
432.470354539
 20
-178.4046215401
 10
429.5141653648
 20
-180.9041370072
 10
426.5253802132
 20
-183.2380848571
 10
423.512615151
 20
-185.3997512011
 10
420.4845578622
 20
-187.382891838
 10
417.4499387537
 20
-189.1817854365
 10
414.4175073299
 20
-190.7912593411
 10
411.3960070042
 20
-192.2066615275
 10
408.394149744
 20
-193.4239117414
 10
405.4205901413
 20
-194.4395043007
 10
402.4839031042
 20
-195.2505088056
 10
399.5925529052
 20
-195.8545880073
 10
396.754879352
 20
-196.2499997074
 10
393.9790628843
 20
-196.4356047396
 10
391.3565200168
 20
-196.4148246393
  0
LWPOLYLINE
  5
EE
330
1F
100
AcDbEntity
  8
0
  6
Continuous
 62
     1
370
    25
100
AcDbPolyline
 90
       45
 70
   128
 43
0.0
 10
502.1846045043
 20
-102.2286869636
 10
502.2367902053
 20
-102.3038849101
 10
503.502030695
 20
-104.3258174228
 10
504.6196123352
 20
-106.5169436363
 10
505.5853783929
 20
-108.8691125193
 10
506.395733215
 20
-111.3735738483
 10
507.0476659362
 20
-114.02101091
 10
507.5387478441
 20
-116.8015762424
 10
507.8671560877
 20
-119.704923577
 10
508.0316657742
 20
-122.7202540355
 10
508.0316657742
 20
-125.8363499727
 10
507.8671560877
 20
-129.0416192722
 10
507.5387478441
 20
-132.324138694
 10
507.0476659362
 20
-135.6716951286
 10
506.395733215
 20
-139.0718376883
 10
505.5853783929
 20
-142.5119147798
 10
504.6196123352
 20
-145.9791334185
 10
503.502030695
 20
-149.4605919282
 10
502.2367902053
 20
-152.9433400161
 10
500.8285981421
 20
-156.414421357
 10
499.2826912514
 20
-159.8609237825
 10
497.604822578
 20
-163.270026428
 10
495.8012324897
 20
-166.629046879
 10
493.8786302378
 20
-169.9254883178
 10
491.8441676159
 20
-173.1470881911
 10
489.7054152515
 20
-176.2818623139
 10
487.4703283623
 20
-179.3181489739
 10
485.1472217313
 20
-182.2446537959
 10
482.7447367794
 20
-185.0504900435
 10
480.2718112728
 20
-187.7252174
 10
477.7376437611
 20
-190.2588898739
 10
475.1516632846
 20
-192.6420793704
 10
472.523489203
 20
-194.8659171333
 10
469.8628982679
 20
-196.9221370879
 10
467.1797880741
 20
-198.8030847731
 10
464.4841396868
 20
-200.5017632508
 10
461.7859814218
 20
-202.0118570574
 10
459.0953508143
 20
-203.3277480742
 10
456.422256424
 20
-204.4445375782
 10
453.7766434252
 20
-205.3580721886
 10
451.1683534364
 20
-206.0649548907
 10
448.6070881353
 20
-206.5625538723
 10
446.1023773195
 20
-206.8490209621
 10
443.6635367595
 20
-206.9232885839
 10
442.6340156909
 20
-206.8897103205
  0
ARC
  5
EF
330
1F
100
AcDbEntity
  8
0
  6
Continuous
 62
     1
370
    25
100
AcDbCircle
 10
488.3012549059
 20
-163.9460678274
 30
0.0
 40
121.2276032882741
100
AcDbArc
 50
145.411951312
 51
154.5934282766
  0
LWPOLYLINE
  5
F0
330
1F
100
AcDbEntity
  8
0
  6
Continuous
 62
     1
370
    25
100
AcDbPolyline
 90
       49
 70
   128
 43
0.0
 10
499.5811330857
 20
-99.0360128155
 10
499.6113602786
 20
-99.0653406219
 10
501.1555681245
 20
-100.725150152
 10
502.5622139252
 20
-102.5683384841
 10
503.8260635689
 20
-104.5880487938
 10
504.9424176822
 20
-106.7767657456
 10
505.9071195319
 20
-109.1263519968
 10
506.7165840019
 20
-111.6280603666
 10
507.3678002266
 20
-114.27258783
 10
507.8583447622
 20
-117.0500960512
 10
508.1863894892
 20
-119.9502535901
 10
508.3507200516
 20
-122.9622686988
 10
508.3507200516
 20
-126.0749397012
 10
508.1863894892
 20
-129.2766868386
 10
507.8583447622
 20
-132.5555967573
 10
507.3678002266
 20
-135.8994756439
 10
506.7165840019
 20
-139.2958813561
 10
505.9071195319
 20
-142.7321775097
 10
504.9424176822
 20
-146.1955848082
 10
503.8260635689
 20
-149.6732167839
 10
502.5622139252
 20
-153.152136832
 10
501.1555681245
 20
-156.6194038362
 10
499.6113602786
 20
-160.062117795
 10
497.9353355298
 20
-163.4674730524
 10
496.1337263434
 20
-166.8228008814
 10
494.2132393365
 20
-170.1156181526
 10
492.1810131317
 20
-173.3336790414
 10
490.0446104541
 20
-176.4650100088
 10
487.8119812531
 20
-179.4979584673
 10
485.4914271405
 20
-182.4212467707
 10
483.0915829521
 20
-185.2239980682
 10
480.6213746001
 20
-187.8957880115
 10
478.0899940488
 20
-190.4266744108
 10
475.5068545333
 20
-192.8072443793
 10
472.8815694865
 20
-195.0286386658
 10
470.223902489
 20
-197.082598799
 10
467.5437412575
 20
-198.9614790623
 10
464.8510556208
 20
-200.6582920462
 10
462.1558629875
 20
-202.1667255414
 10
459.4681894095
 20
-203.4811680589
 10
456.7980331155
 20
-204.596729881
 10
454.1553275907
 20
-205.5092613335
 10
451.5499035876
 20
-206.2153655906
 10
448.9914542229
 20
-206.7124188241
 10
446.4894961231
 20
-206.9985713405
 10
444.0533371563
 20
-207.0727570839
 10
441.6920388951
 20
-206.934700096
 10
439.4143889572
 20
-206.5849152742
 10
437.7313994418
 20
-206.1745043544
  0
ENDSEC
  0
SECTION
  2
OBJECTS
  0
DICTIONARY
  5
C
330
0
100
AcDbDictionary
281
     1
  3
ACAD_GROUP
350
D
  3
ACAD_LAYOUT
350
1A
  3
ACAD_MLINESTYLE
350
17
  3
ACAD_PLOTSETTINGS
350
19
  3
ACAD_PLOTSTYLENAME
350
E
  3
ACAD_SCALELIST
350
47
  0
DICTIONARY
  5
D
102
{ACAD_REACTORS
330
C
102
}
330
C
100
AcDbDictionary
281
     1
  0
DICTIONARY
  5
1A
102
{ACAD_REACTORS
330
C
102
}
330
C
100
AcDbDictionary
281
     1
  3
Layout1
350
1E
  3
Layout2
350
26
  3
Model
350
22
  0
DICTIONARY
  5
17
102
{ACAD_REACTORS
330
C
102
}
330
C
100
AcDbDictionary
281
     1
  3
Standard
350
18
  0
DICTIONARY
  5
19
102
{ACAD_REACTORS
330
C
102
}
330
C
100
AcDbDictionary
281
     1
  0
ACDBDICTIONARYWDFLT
  5
E
102
{ACAD_REACTORS
330
C
102
}
330
C
100
AcDbDictionary
281
     1
  3
Normal
350
F
100
AcDbDictionaryWithDefault
340
F
  0
DICTIONARY
  5
47
102
{ACAD_REACTORS
330
C
102
}
330
C
100
AcDbDictionary
281
     1
  3
A0
350
48
  3
A1
350
49
  3
A2
350
4A
  3
A3
350
4B
  3
A4
350
4C
  3
A5
350
4D
  3
A6
350
4E
  3
A7
350
4F
  3
A8
350
50
  3
A9
350
51
  3
B0
350
52
  3
B1
350
53
  3
B2
350
54
  3
B3
350
55
  3
B4
350
56
  3
B5
350
57
  3
B6
350
58
  3
B7
350
59
  3
B8
350
5A
  3
B9
350
5B
  3
C0
350
5C
  3
C1
350
5D
  3
C2
350
5E
  3
C3
350
5F
  3
C4
350
60
  3
C5
350
61
  3
C6
350
62
  3
C7
350
63
  3
C8
350
64
  3
C9
350
65
  3
D0
350
66
  3
D1
350
67
  3
D2
350
68
  0
LAYOUT
  5
1E
102
{ACAD_REACTORS
330
1A
102
}
330
1A
100
AcDbPlotSettings
  1

  2
none_device
  4

  6

 40
0.0
 41
0.0
 42
0.0
 43
0.0
 44
0.0
 45
0.0
 46
0.0
 47
0.0
 48
0.0
 49
0.0
140
0.0
141
0.0
142
1.0
143
1.0
 70
   688
 72
     1
 73
     0
 74
     5
  7

 75
    16
147
1.0
148
0.0
149
0.0
100
AcDbLayout
  1
Layout1
 70
     1
 71
     1
 10
0.0
 20
0.0
 11
420.0
 21
297.0
 12
0.0
 22
0.0
 32
0.0
 14
1.0000000000E+20
 24
1.0000000000E+20
 34
1.0000000000E+20
 15
-1.0000000000E+20
 25
-1.0000000000E+20
 35
-1.0000000000E+20
146
0.0
 13
0.0
 23
0.0
 33
0.0
 16
1.0
 26
0.0
 36
0.0
 17
0.0
 27
1.0
 37
0.0
 76
     0
330
1B
  0
LAYOUT
  5
26
102
{ACAD_REACTORS
330
1A
102
}
330
1A
100
AcDbPlotSettings
  1

  2
none_device
  4

  6

 40
0.0
 41
0.0
 42
0.0
 43
0.0
 44
0.0
 45
0.0
 46
0.0
 47
0.0
 48
0.0
 49
0.0
140
0.0
141
0.0
142
1.0
143
1.0
 70
   688
 72
     1
 73
     0
 74
     5
  7

 75
    16
147
1.0
148
0.0
149
0.0
100
AcDbLayout
  1
Layout2
 70
     1
 71
     2
 10
0.0
 20
0.0
 11
0.0
 21
0.0
 12
0.0
 22
0.0
 32
0.0
 14
0.0
 24
0.0
 34
0.0
 15
0.0
 25
0.0
 35
0.0
146
0.0
 13
0.0
 23
0.0
 33
0.0
 16
1.0
 26
0.0
 36
0.0
 17
0.0
 27
1.0
 37
0.0
 76
     0
330
23
  0
LAYOUT
  5
22
102
{ACAD_REACTORS
330
1A
102
}
330
1A
100
AcDbPlotSettings
  1

  2
none_device
  4
Letter_(8.50_x_11.00_Inches)
  6

 40
6.35
 41
6.35
 42
6.35000508
 43
6.35000508
 44
215.9
 45
279.4
 46
0.0
 47
0.0
 48
0.0
 49
0.0
140
0.0
141
0.0
142
1.0
143
1.0
 70
  1712
 72
     1
 73
     0
 74
     0
  7

 75
     0
147
1.0
148
0.0
149
0.0
100
AcDbLayout
  1
Model
 70
     1
 71
     0
 10
0.0
 20
0.0
 11
279.4
 21
215.9
 12
0.0
 22
0.0
 32
0.0
 14
0.0
 24
0.0
 34
0.0
 15
279.4
 25
215.9
 35
0.0
146
0.0
 13
0.0
 23
0.0
 33
0.0
 16
1.0
 26
0.0
 36
0.0
 17
0.0
 27
1.0
 37
0.0
 76
     0
330
1F
331
29
  0
MLINESTYLE
  5
18
102
{ACAD_REACTORS
330
17
102
}
330
17
100
AcDbMlineStyle
  2
Standard
 70
     0
  3

 62
   256
 51
90.0
 52
90.0
 71
     2
 49
0.5
 62
   256
  6
BYLAYER
 49
-0.5
 62
   256
  6
BYLAYER
  0
ACDBPLACEHOLDER
  5
F
102
{ACAD_REACTORS
330
E
102
}
330
E
  0
SCALE
  5
48
102
{ACAD_REACTORS
330
47
102
}
330
47
100
AcDbScale
 70
     0
300
1:1
140
1.0
141
1.0
290
     1
  0
SCALE
  5
49
102
{ACAD_REACTORS
330
47
102
}
330
47
100
AcDbScale
 70
     0
300
1:2
140
1.0
141
2.0
290
     0
  0
SCALE
  5
4A
102
{ACAD_REACTORS
330
47
102
}
330
47
100
AcDbScale
 70
     0
300
1:4
140
1.0
141
4.0
290
     0
  0
SCALE
  5
4B
102
{ACAD_REACTORS
330
47
102
}
330
47
100
AcDbScale
 70
     0
300
1:5
140
1.0
141
5.0
290
     0
  0
SCALE
  5
4C
102
{ACAD_REACTORS
330
47
102
}
330
47
100
AcDbScale
 70
     0
300
1:8
140
1.0
141
8.0
290
     0
  0
SCALE
  5
4D
102
{ACAD_REACTORS
330
47
102
}
330
47
100
AcDbScale
 70
     0
300
1:10
140
1.0
141
10.0
290
     0
  0
SCALE
  5
4E
102
{ACAD_REACTORS
330
47
102
}
330
47
100
AcDbScale
 70
     0
300
1:16
140
1.0
141
16.0
290
     0
  0
SCALE
  5
4F
102
{ACAD_REACTORS
330
47
102
}
330
47
100
AcDbScale
 70
     0
300
1:20
140
1.0
141
20.0
290
     0
  0
SCALE
  5
50
102
{ACAD_REACTORS
330
47
102
}
330
47
100
AcDbScale
 70
     0
300
1:30
140
1.0
141
30.0
290
     0
  0
SCALE
  5
51
102
{ACAD_REACTORS
330
47
102
}
330
47
100
AcDbScale
 70
     0
300
1:40
140
1.0
141
40.0
290
     0
  0
SCALE
  5
52
102
{ACAD_REACTORS
330
47
102
}
330
47
100
AcDbScale
 70
     0
300
1:50
140
1.0
141
50.0
290
     0
  0
SCALE
  5
53
102
{ACAD_REACTORS
330
47
102
}
330
47
100
AcDbScale
 70
     0
300
1:100
140
1.0
141
100.0
290
     0
  0
SCALE
  5
54
102
{ACAD_REACTORS
330
47
102
}
330
47
100
AcDbScale
 70
     0
300
2:1
140
2.0
141
1.0
290
     0
  0
SCALE
  5
55
102
{ACAD_REACTORS
330
47
102
}
330
47
100
AcDbScale
 70
     0
300
4:1
140
4.0
141
1.0
290
     0
  0
SCALE
  5
56
102
{ACAD_REACTORS
330
47
102
}
330
47
100
AcDbScale
 70
     0
300
8:1
140
8.0
141
1.0
290
     0
  0
SCALE
  5
57
102
{ACAD_REACTORS
330
47
102
}
330
47
100
AcDbScale
 70
     0
300
10:1
140
10.0
141
1.0
290
     0
  0
SCALE
  5
58
102
{ACAD_REACTORS
330
47
102
}
330
47
100
AcDbScale
 70
     0
300
100:1
140
100.0
141
1.0
290
     0
  0
SCALE
  5
59
102
{ACAD_REACTORS
330
47
102
}
330
47
100
AcDbScale
 70
     0
300
1/128" = 1'-0"
140
0.0078125
141
12.0
290
     0
  0
SCALE
  5
5A
102
{ACAD_REACTORS
330
47
102
}
330
47
100
AcDbScale
 70
     0
300
1/64" = 1'-0"
140
0.015625
141
12.0
290
     0
  0
SCALE
  5
5B
102
{ACAD_REACTORS
330
47
102
}
330
47
100
AcDbScale
 70
     0
300
1/32" = 1'-0"
140
0.03125
141
12.0
290
     0
  0
SCALE
  5
5C
102
{ACAD_REACTORS
330
47
102
}
330
47
100
AcDbScale
 70
     0
300
1/16" = 1'-0"
140
0.0625
141
12.0
290
     0
  0
SCALE
  5
5D
102
{ACAD_REACTORS
330
47
102
}
330
47
100
AcDbScale
 70
     0
300
3/32" = 1'-0"
140
0.09375
141
12.0
290
     0
  0
SCALE
  5
5E
102
{ACAD_REACTORS
330
47
102
}
330
47
100
AcDbScale
 70
     0
300
1/8" = 1'-0"
140
0.125
141
12.0
290
     0
  0
SCALE
  5
5F
102
{ACAD_REACTORS
330
47
102
}
330
47
100
AcDbScale
 70
     0
300
3/16" = 1'-0"
140
0.1875
141
12.0
290
     0
  0
SCALE
  5
60
102
{ACAD_REACTORS
330
47
102
}
330
47
100
AcDbScale
 70
     0
300
1/4" = 1'-0"
140
0.25
141
12.0
290
     0
  0
SCALE
  5
61
102
{ACAD_REACTORS
330
47
102
}
330
47
100
AcDbScale
 70
     0
300
3/8" = 1'-0"
140
0.375
141
12.0
290
     0
  0
SCALE
  5
62
102
{ACAD_REACTORS
330
47
102
}
330
47
100
AcDbScale
 70
     0
300
1/2" = 1'-0"
140
0.5
141
12.0
290
     0
  0
SCALE
  5
63
102
{ACAD_REACTORS
330
47
102
}
330
47
100
AcDbScale
 70
     0
300
3/4" = 1'-0"
140
0.75
141
12.0
290
     0
  0
SCALE
  5
64
102
{ACAD_REACTORS
330
47
102
}
330
47
100
AcDbScale
 70
     0
300
1" = 1'-0"
140
1.0
141
12.0
290
     0
  0
SCALE
  5
65
102
{ACAD_REACTORS
330
47
102
}
330
47
100
AcDbScale
 70
     0
300
1-1/2" = 1'-0"
140
1.5
141
12.0
290
     0
  0
SCALE
  5
66
102
{ACAD_REACTORS
330
47
102
}
330
47
100
AcDbScale
 70
     0
300
3" = 1'-0"
140
3.0
141
12.0
290
     0
  0
SCALE
  5
67
102
{ACAD_REACTORS
330
47
102
}
330
47
100
AcDbScale
 70
     0
300
6" = 1'-0"
140
6.0
141
12.0
290
     0
  0
SCALE
  5
68
102
{ACAD_REACTORS
330
47
102
}
330
47
100
AcDbScale
 70
     0
300
1'-0" = 1'-0"
140
12.0
141
12.0
290
     0
  0
ENDSEC
  0
EOF
